Karel Plíhal – Země je deska

Skok na menu

   C             Fmaj7       Fmaj7       G
e |3----------|------------|-----------|-0----------|
h |------1----|---0/1------|--0/1----1-|---3-1--3---|
g |---0-------|--2-------0-|-2---------|-----------0|
d |---------0-|--3---------|-3---------|------------|
A |3-----3----|-------3----|------3----|------------|
E |-----------|------------|-----------|--------3---|

   C              Fmaj7        Fmaj7       G      C
e |3----------|------------|------------|-----------|
h |------1----|---0/1------|---0/1----1-|-3-1-0--1--|
g |---0-------|--2-------0-|--2---------|-----------|
d |---------0-|--3---------|--3---------|-----------|
A |3-----3----|-------3----|-------3----|--------3--|
E |-----------|------------|------------|-----------|

Vytištěno z http://plihal.wz.cz | oficiální stránky pana Plíhala najdete na http://karelplihal.cz

Tato písnička:

Tento web je neoficiální.
Oficiální stránky Karla Plíhala najdete na karelplihal.cz.

Karel Plíhal

kompletní databáze textů s akordy


 

škola kytary online - NaNastroj.cz | Akordy na kytaru | © texty Karel Plíhal, web Jakub Kletečka | aktualizováno 23.9.2018