Karel Plíhal – Z minula

Skok na menu

Kapo: 2

e|---||------|------|------|-------|------|
h|0/1||3--3-1|0----0|---3-1|0-3--3/|3--3-1|
g|---||------|--002-|2-----|---2---|------|
d|---||---0--|------|0-----|---0---|---0--|
a|---||------|------|------|-------|------|
E|---||3-----|3-----|------|3------|3-----|
       G  D   G      D      G  D    G  D  

|------|------|---3/2/3|0--023|------|
|0----0|---3-1|0-------|------|30---0|
|--002-|2-----|--0-----|------|--002-|
|------|0-----|--------|------|------|
|------|------|--------|3-----|------|
|3-----|------|3-------|------|3--0--|
 G      D      G        C      G  Emi

e|------|------|------|---0/--|0-----|------|------||
h|---3-1|0-3--3|0---0-|-------|------|0---0-|-----3||
g|2-----|---2--|---2-2|0------|------|---2-2|0-00--||
d|0-----|---0--|---0--|-------|------|---0--|------||
a|------|------|------|---3/--|3-----|------|------||
E|------|3-----|3-----|0------|------|3-----|3-----||
  D      G  D   G  D   EmiC           G  D   C

| - taktová čára
|| - repetice - opakuje se celou píseň
/ - legato (pro nechápavé vázaně)

První dva tóny jsou šestnáctiny v předtaktí. Komu se nelíbí jenom basy a umí hrát jako Karel, může zkusit vždy na příslušnou dobu chytit akord pod linkami a všemi prsty, které má zahrát zároveň na všechny struny, které připadají v úvahu.

        
     

Vytištěno z http://plihal.wz.cz | oficiální stránky pana Plíhala najdete na http://karelplihal.cz

Tato písnička:

Tento web je neoficiální.
Oficiální stránky Karla Plíhala najdete na karelplihal.cz.

Karel Plíhal

kompletní databáze textů s akordy


 

škola kytary online - NaNastroj.cz | Akordy na kytaru | © texty Karel Plíhal, web Jakub Kletečka | aktualizováno 23.9.2018