Karel Plíhal – Večerní

Skok na menu

E|5---0-2-3-----3-|2---0---2-----2-|5---0-2-3-----3-|
H|--3-------0-3---|--3---2-----3---|--3-------0-3---|
G|----------------|----------2-----|----------------|
D|0---------------|0-------0-------|0---------------|
A|----------------|----0-----------|----------------|
E|--------0-------|----------------|--------0-------|


E|2---0-----------|----0-------0---|0---0---0-----0-|
H|--3---2-3---3---|--2---2-----0---|2---0---2---2---|
G|----------2---2-|-2--------1---1-|--2---1---2-----|
D|0-------0-------|----------------|----------------|
A|----0-----------|0---------------|0-------0-------|
E|----------------|--------0-------|----0-----------|


E|5---0-2-3-----3-|2---0---2-----2-|
H|--3-------0-3---|--3---2-3---3---|
G|----------------|----------2-----|
D|0---------------|0-------0-------|
A|----------------|----0-----------|
E|--------0-------|----------------|

Vytištěno z http://plihal.wz.cz | oficiální stránky pana Plíhala najdete na http://karelplihal.cz

Tato písnička:

Tento web je neoficiální.
Oficiální stránky Karla Plíhala najdete na karelplihal.cz.

Karel Plíhal

kompletní databáze textů s akordy


 

Škola kytary online - NaNastroj.cz | © texty Karel Plíhal, web Jakub Kletečka | aktualizováno 22.8.2017