Karel Plíhal – Ve skříni

Skok na menu

E:-3/1-----------1-3-4-1-------1-------3-------|
B:-----4-------4-----------------4-3-------4-3-|
G:---------3---------------3---------3---------|
D:-------1---------------1---------------1-----|

1.-----------------:|:2.-----1---------:|
1.-1---------------:|:2.-1-------3-4---:|
1.-----1---1/3-3---:|:2.---1--(1)------:|
1.---1---1---------:|:2.---------------:|


E:-3/6/8-6-6-6---3---1/3-3---|
B:-----------------4---------|
G:---------------------------|

1.-3/6/8-6-6-6---1-3-1p3p1---:|:2.-1-3-1p3p1-----------1-3-1-------:|
1.------------------------4--:|:2.-----------4-4-4-4---------4-4---:|
1.-------------------------3-:|:2.---------------------------------:|

Vytištěno z http://plihal.wz.cz | oficiální stránky pana Plíhala najdete na http://karelplihal.cz

Tato písnička:

Tento web je neoficiální.
Oficiální stránky Karla Plíhala najdete na karelplihal.cz.

Karel Plíhal

kompletní databáze textů s akordy


 

škola kytary online - NaNastroj.cz | Akordy na kytaru | © texty Karel Plíhal, web Jakub Kletečka | aktualizováno 23.9.2018