Karel Plíhal – Utekl jsem od manželky k mamince

Skok na menu

E je podladěné na d 

intro a mezihry:
 
E|------1h0-----------------|------x---------x-----| 
B|------------3-1-----3--3--|------x----1----x-----| 
G|*-----------------2-------|------x----2----x----*| 
D|*-------------------------|------x---------x----*| 
A|--------------------------|----------------------| 
D|--0--------------------0--|----------------------| 


solo:
 
|-------------------------|-----------------------| 
|-------------------------|-----------------------| 
|*------------------------|----------------------*| 
|*----3h2h--0-------------|----------------------*| 
|-------------3h--0-5--5--|----3h-2---------------| 
|-------------------------|------------5----3--0--| 

2. kytara(?):

|------------------------|--------------------------------| 
|------------------------|--------------------------------| 
|------------------------|-0h2---0------------------------| 
|-----3h2h--0------------|------------0-------------------| 
|-------------3h--0-5----|-----------------2----1----0----| 
|------------------------|--------------------------------| 

|---------------------|-------------------------| 
|---------------------|-------------------------| 
|-----0h2--0----------|------------------------*| 
|---------------------|---0--------------------*| 
|---------------------|-------3-2---------------| 
|--5------------------|-------------3-5----3----| 


konec:

|------1h0-----------------|-------------------| 
|------------3-1-----3--3--|----------1--------| 
|------------------2-------|----------2--------| 
|--------------------------|-------------------| 
|--------------------------|-------------------| 
|--0--------------------0--|-------------------| 

Vytištěno z http://plihal.wz.cz | oficiální stránky pana Plíhala najdete na http://karelplihal.cz

Tato písnička:

Tento web je neoficiální.
Oficiální stránky Karla Plíhala najdete na karelplihal.cz.

Karel Plíhal

kompletní databáze textů s akordy


 

škola kytary online - NaNastroj.cz | Akordy na kytaru | © texty Karel Plíhal, web Jakub Kletečka | aktualizováno 23.9.2018