Karel Plíhal – Tři andělé

Skok na menu

Kapo: 4

Intro

  Ami                 Ami,D,G   F       Emi,Ami
|-----------------0-------0-----------------------|
|---0-----0---------0---------3-----1---0-----0---|
|-2-----2-------2-------0---2---------2---2-----2-|
|-----2-----2---------------------3---------2-----|
|-0-----0-----0-----------0-----3-------2-0-------|
|---------------------0-------3-------------------|


Sloka

  Ami                 Ami,D,G   F           E4sus  
  V zahradě...     
|-----------------0-------0-----------------------|
|---0-----0---------0---------3-----1---1-0-------|
|-2-----2-------2-------0---2---------2-----2-----|
|-----2-----2---------------------3-------------2-|
|-0-----0-----0-----------0-----3-------------2---|
|---------------------0-------3-------------------|

  tři andělé...
|-----------------0-------0-----------------------|
|---0-----0---------0---------3-----1---0-----0---|
|-2-----2-------2-------0---2---------2---2-----2-|
|-----2-----2---------------------3---------2-----|
|-0-----0-----0-----------0-----3-------2-0-------|
|---------------------0-------3-------------------|


Refrén

  Ami,D         G     Ami
  Přisednout...
|-0-2-3-2/3/2/0-------0---------|
|---------------3-3-3-----0-----|
|---------------------------2---|
|---0-------------------2-----2-|
|-0-------------------0---------|
|---------------3-3-3-----------|

Vytištěno z http://plihal.wz.cz | oficiální stránky pana Plíhala najdete na http://karelplihal.cz

Tato písnička:

Tento web je neoficiální.
Oficiální stránky Karla Plíhala najdete na karelplihal.cz.

Karel Plíhal

kompletní databáze textů s akordy


 

Škola kytary online - NaNastroj.cz | © texty Karel Plíhal, web Jakub Kletečka | aktualizováno 22.8.2017