Karel Plíhal – Sopka

Skok na menu

Kapo: 5

   Asus2  C6/G          Ami        C     Dmi Ami  E
e:-------------|----0----------|---0---0-1---0-----|-------|
B:------0-1-0--|--3---1-0h1p0--|-----3-----0---1-0-|-------|
G:----2--------|0------------2-|-------------------|--1----|
D:--2------(0)-|---------------|2--------0---------|2------|
A:--0----------|--------0------|---3---------0-----|-------|
E:--------3----|---------------|-----------------0-|-------|

   Asus2   C6/G         Ami        C    Dmi Ami E Ami
e:------------|----0----------|----0---0-1-------|---------|
B:------0-1-0-|--3---1-0h1p0--|------3-----0-1-0-|---------|
G:----2-------|0------------2-|------------------|2--------|
D:--2------(0)|---------------|2---------0-------|---------|
A:--0---------|--------0------|----3---------0---|0--------|
E:--------3---|---------------|----------------0-|---------|

Vytištěno z http://plihal.wz.cz | oficiální stránky pana Plíhala najdete na http://karelplihal.cz

Tato písnička:

Tento web je neoficiální.
Oficiální stránky Karla Plíhala najdete na karelplihal.cz.

Karel Plíhal

kompletní databáze textů s akordy


 

Škola kytary online - NaNastroj.cz | © texty Karel Plíhal, web Jakub Kletečka | aktualizováno 22.8.2017