Karel Plíhal – Provazochodecká

Skok na menu

Intro a mezihra:

  Emi                   Emi
|---------2-----0h2p0-|---------2-----|
|-------0-----0-------|-------0-----0-|
|-----0-----0---------|-----0-----0---|
|---2-----------------|---2-----------|
|---------------------|---------------|
|-0-------------------|-0-------------|


  Emi               E        Ami       H7       C        
|---------0-------|------------------|-----2------------|
|-------0-----0---|-----0--------1---|-----0--------1---|
|-----0-----0---0-|-----1--------2---|---2---2------0---|
|---2-------------|---2---2----2---2-|------------2-----|
|-----------------|----------0-------|-2--------3-----2-|
|-0---------------|-0----------------|------------------|

 Ami      H7        Emi               E        Ami       
|--------------2---|---------------0-|------------------|
|-----1--------0---|-------0-----0---|-----0--------1---|
|-----2------2---2-|-----0---0-------|-----1--------2---|
|---2---2----------|---2-------2-----|---2---2----2---2-|
|-0--------2-------|-----------------|----------0-------|
|------------------|-0---------------|-0----------------|
 
 
 H7       C         H7      E
|-----2------------|-----2-----------|
|-----0--------1---|-----0---------0-|
|---2---2------0---|---2---2-----0---|
|------------2---2-|-----------2-----|  
|-2--------3-------|-2---------------|
|------------------|---------0-------|


  H7       C         H7      E
|-----2------------|-----2-----------2-----0h2p0-|
|-----0--------1---|-----0---------0-----0-------|
|---2---2------0---|---2---2-----0-----0---------|
|------------2---2-|-----------2-----------------|
|-2--------3-------|-2---------------------------|
|------------------|---------0-------------------|

konec: 
e: 0-2-3-5-7/11-12

Vytištěno z http://plihal.wz.cz | oficiální stránky pana Plíhala najdete na http://karelplihal.cz

Tato písnička:

Tento web je neoficiální.
Oficiální stránky Karla Plíhala najdete na karelplihal.cz.

Karel Plíhal

kompletní databáze textů s akordy


 

Škola kytary online - NaNastroj.cz | © texty Karel Plíhal, web Jakub Kletečka | aktualizováno 22.8.2017