Karel Plíhal – Před bouří

Skok na menu

Kapo: 2

 Dmi      Ami   Dmi     Ami   Dmi     Ami   G       A
|-----1-------|-----1-------|-----1-------|--------------|
|-------3---1-|-------3---1-|-------3---1-|-----3--------|
|---2---------|---2---------|---2---------|-------0----2-|
|-0-----------|-0-----------|-0-----------|---0----------|
|---------0---|---------0---|---------0---|---------0----|
|-------------|-------------|-------------|-3------------|

 G        E     A             G       E     A
|---------0---|-------------|---------0---|---------0----|
|-------3---3-|---------3---|-------3---3-|-----2-----2--|
|-----0-------|---2-------0-|-----0-------|---2---2------|
|---0---------|-------0-----|---0---------|--------------|
|-------------|-0---2-------|-------------|-0------------|
|-3-------0---|-------------|-3-------0---|--------------|

Vytištěno z http://plihal.wz.cz | oficiální stránky pana Plíhala najdete na http://karelplihal.cz

Tato písnička:

Tento web je neoficiální.
Oficiální stránky Karla Plíhala najdete na karelplihal.cz.

Karel Plíhal

kompletní databáze textů s akordy


 

škola kytary online - NaNastroj.cz | Akordy na kytaru | © texty Karel Plíhal, web Jakub Kletečka | aktualizováno 23.9.2018