Karel Plíhal – Pohádka

Skok na menu

Sloka:

e |------------0---|----2-----------|----0-----------|
h |----0---1-------|3-------0---0-3-|1-----------3-1-|
g |0-----0---0---0-|--0---0---0-----|--0---0-2-------|
d |--0-------------|----------------|----------0-----|
A |----------------|----------------|----------------|
E |----------------|----------------|----------------|

e |--------------|----------0----|----2-----------|
h |0---0-3-------|---0--1--------|3-------0---0-3-|
g |--0-----0-----|-0---0---0---0-|--0---0---0-----|
d |----------4---|2--------------|----------------|
A |--------------|---------------|----------------|
E |--------------|---------------|----------------|

e |----0-----------|----------------|
h |1-----------3-1-|0-----------3---|
g |--0---0-2-------|----2-0-2-------|
d |----------0-----|--0-------0---0-|
A |----------------|----------------|
E |----------------|----------------|

Mezihra po ref.:

e |3-3-0-2-3-0-|2-2---2-|0-0-----0---|----------|
h |------------|----3---|----1-3---1-|3-3-0---3-|
g |------------|--------|------------|------2---|
d |------------|--------|------------|----------|
A |------------|--------|------------|----------|
E |------------|--------|------------|----------|

Alternativa mezihry:

   Emoll            Ddur                  
e |3---3---0-2-3-0-|2---2-------2---|
h |0---0---0-0-0-0-|3---3---3---3---|
g |--0---0---------|--2---2-2-----2-|
d |2---------------|0---------0-----|
A |----------------|----------------|
E |----------------|----------------|

   Cdur             Gdur     Ddur     
e |0---0-------0---|---------------|
h |1---1---1-3-0-1-|3---3-0------3-|
g |--0---0-0-0---0-|0---0-0--2---2-|
d |----------------|--0------0-----|
A |3---------------|-----------0---|
E |----------------|3--------------|

Vytištěno z http://plihal.wz.cz | oficiální stránky pana Plíhala najdete na http://karelplihal.cz

Tato písnička:

Tento web je neoficiální.
Oficiální stránky Karla Plíhala najdete na karelplihal.cz.

Karel Plíhal

kompletní databáze textů s akordy


 

škola kytary online - NaNastroj.cz | Akordy na kytaru | © texty Karel Plíhal, web Jakub Kletečka | aktualizováno 23.9.2018