Karel Plíhal – Podzimní

Skok na menu

1. část úvodního sóla

e:--7-6-7---------------4-----------------|
h:----------4---4---4-----5-7-----4-5-4---|
g:--------4---6---6---4-------6-6-------4-|
d:----------------------------------------|
A:----------------------------------------|
E:----------------------------------------|

2. část úvodního sóla

e:--7-6-7---------------4-------------------|
h:----------4---4---4-----5-7---4-5-4-------|
g:--------4---6---6---4-------6-------4-3-4-|
d:------------------------------------------|
A:------------------------------------------|
E:------------------------------------------|

Vytištěno z http://plihal.wz.cz | oficiální stránky pana Plíhala najdete na http://karelplihal.cz

Tato písnička:

Tento web je neoficiální.
Oficiální stránky Karla Plíhala najdete na karelplihal.cz.

Karel Plíhal

kompletní databáze textů s akordy


 

škola kytary online - NaNastroj.cz | Akordy na kytaru | © texty Karel Plíhal, web Jakub Kletečka | aktualizováno 23.9.2018