Karel Plíhal – Plachetnice

Skok na menu

Kapo: 3

  Am                Em                Am                
|-----------0-----|-----------0-----|-----------0-----|
|-------0h1-----0-|-------0-------0-|-------0h1-----0-|
|-----2-----------|-----0-------0---|-----2-----------|
|---2---------2---|---2-------------|---2---------2---|
|-0-------0-------|---------2-------|-0-------0-------|
|-----------------|-0---------------|-----------------|


  Em             Am              Em          Am   
|-----------0--|---------------|-----------------|
|-------0------|-1-----------1-|-------0-----1---|
|-----0--------|-----2-----2---|-----0---------0-|
|---2----------|---2-----2-----|---2-------2-----|
|---------2----|-0-----0-------|-------------0---|
|-0------------|---------------|-0-------0-------|


 C       G6        C       E
|-----------------|------------------|
|-----1---3-----0-|-----1---------0--|
|-----0-------0---|-----0-------1----|
|---2---0---0-----|---2---0---2------|
|-3---------------|-3----------------|
|---------3-------|---------0--------|


  F       G6        C       E         Esus4   Dm
|-----1-----------|-----------------|---------------1-|
|-----1---3-----0-|-----1---0-------|-------0-----3---|
|---2---2-----0---|-----0-------1-2-|-----2-----2-----|
|-3---------0-----|---2---0---2-----|---2-----0-------|
|-----------------|-3---------------|-0---------------|
|---------3-------|---------0-------|-----------------|


  Am      Em    Am              Em
|-----0-------|-----------0----------------0--------|
|-----1-------|-------0h1-----0--------0-------0----|
|-------------|-----2----------------0-------0------|
|---2---0---2-|---2---------2-----2-----------------|
|-0-----------|-0-------0----------------2----------|
|---------0---|-----------------0-------------------|

Vytištěno z http://plihal.wz.cz | oficiální stránky pana Plíhala najdete na http://karelplihal.cz

Tato písnička:

Tento web je neoficiální.
Oficiální stránky Karla Plíhala najdete na karelplihal.cz.

Karel Plíhal

kompletní databáze textů s akordy


 

škola kytary online - NaNastroj.cz | Akordy na kytaru | © texty Karel Plíhal, web Jakub Kletečka | aktualizováno 23.9.2018