Karel Plíhal – Píseň

Skok na menu

Kapo: 3

intro 2x

E:-------2--3--0-----0--2------2--3--0-----0----|
H:-3--------------3---------------------3-----3-|
G:----2---------------------2-------------------|
D:-0--------------------0---------------------0-|
A:-------------0---------------------0----------|
E:----------------------------------------------|

E:-------2--3--0-----0--2-----5--3-----0--------|
H:-3--------------3--------3--------3-----0-----|
G:----2-----------------------------------------|
D:-0--------------------0-----------------------|
A:-------------0-----------------------------2--|
E:----------------------------------------------|

E:----------0------------------------0----|
H:-0--2--3-----0--2----------0--2--3----0-|
G:-------------------2---2--------------0-|
D:----------------------------------------|
A:----------------------------------------|
E:---------------------2----------------3-|

E:----0--3--2h3p2-----0-----|
H:-0---------------3--------|
G:-----------------------2--|
D:-----------------------2--|
A:----------0---------------|
E:--------------------------|


2. kytara: (v orig: (1. kytara kapo  3. prazec, 2. kytara normalne))

E:------------------5--------------------|
H:-------------------------------------6-|
G:---------------------------------------|
D:-----3--2--3------------3--2--3--------|
A:--3-----------3------3-----------3-----|
E:---------------------------------------|

E:---------------5-----------------|
H:-------------------------------6-|
G:---------------------------------|
D:--3p2h3p2h3-------3p2h3p2h3------|
A:------------3---------------3----|
E:---------------------------------|

Vytištěno z http://plihal.wz.cz | oficiální stránky pana Plíhala najdete na http://karelplihal.cz

Tato písnička:

Tento web je neoficiální.
Oficiální stránky Karla Plíhala najdete na karelplihal.cz.

Karel Plíhal

kompletní databáze textů s akordy


 

Škola kytary online - NaNastroj.cz | © texty Karel Plíhal, web Jakub Kletečka | aktualizováno 22.8.2017