Karel Plíhal – Padaly hvězdy

Skok na menu

e |--3--5--3--|--0---------|-----------|------------|
h |-----------|-----1--3---|--3-----1--|--0---------|
g |-----------|------------|-----2-----|-----2--0---|
d |-----------|------------|--0--------|------------|
A |--3--------|--0---------|-----------|------------|
E |-----------|------------|-----------|--3---------|

e |-----0-----|--3--1--0---|----1--0---|------------|
h |--3--5--6--|------------|-1--------3|------------|
g |--0-----0--|------------|-----------|------------|
d |-----------|------------|-3---------|------------|
A |-----0-----|--3---------|-------3---|------------|
E |--3-----7--|------------|----------3|------------|

e |--3--5--3--|--0---------|-----------|------------|
h |-----------|-----3--1---|--3-----1--|--0---------|
g |-----------|------------|-----2-----|-----2--0---|
d |-----------|------------|--0--------|------------|
A |--3--------|--0---------|-----------|------------|
E |-----------|------------|-----------|--3---------|

e |-----0-----|--3--0------|--1--0-----|------------|
h |--3--5--6--|--------1---|--------1--|------------|
g |--0-----0--|------------|-----------|------------|
d |-----------|------------|--3--------|------------|
A |-----0-----|--3---------|--------3--|------------|
E |--3-----7--|------------|-----------|------------|

Vytištěno z http://plihal.wz.cz | oficiální stránky pana Plíhala najdete na http://karelplihal.cz

Tato písnička:

Tento web je neoficiální.
Oficiální stránky Karla Plíhala najdete na karelplihal.cz.

Karel Plíhal

kompletní databáze textů s akordy


 

škola kytary online - NaNastroj.cz | Akordy na kytaru | © texty Karel Plíhal, web Jakub Kletečka | aktualizováno 23.9.2018