Karel Plíhal – O písničce

Skok na menu

Předehra:

e:-------------------------------------------------------------3---------|
H:--------3---3-------3-------3--------3-------3-------3---------3-------|
G:------0-------0-------0-------0--------0-------0-------0---------0-----|
D:---0------------0-------0-------0--------0-------0-------0-------------|
A:----------3-------2----------------3-------2-------0-------------------|
E:---------------------------3-------------------------------1-----------|


                                               G5 (4x)                  

                                                   
e:----------------------------------------------|------------------------|
H:-----------3--------------3--------------3----|----------3-------------|
G:-------0-----0--------0-----0--------2-----2--|------0-----0-----------|
D:-----0---------0----0---------0----0---------0|----0---------0---------|
A:---------1----------------------0------0------|------------------------|
E:--0--------------3------3---------------------|-3------3---------------|


Sloky:
 
Pořadí akordů: 
 G,D   G,D,F   G,D   Emi,C,D,G

Rozklady:

    G5                     D5                  F        
e:----------------| |----------0------| |----------1------|                          
H:----------3-----| |------3-----3----| |------1-----1----|
G:------0-----0---| |----2---------2--| |----2---------2--|     
D:----0---------0-| |-0---------------| |-3------3--------|
A:----------------| |--------0--------| |-----------------|
E:-3------3-------| |-----------------| |-----------------|


     Emi                C                 D5              
e:---------0------| |----------0------| |----------0-----|
H:-----------0----| |------1-----1----| |------3-----3---|
G:------0------0--| |----0---------0--| |----2---------2-|
D:----1-----------| |--------2--------| |-0------0-------|
A:--------1-------| |-3---------------| |----------------|
E:-0--------------| |-----------------| |----------------|

Variace:
       G                   D                 D
e:-----------0-----||---------0h2------||-----------3------|
H:-------------3---||-------3-----3----||-------3-----3----|
G:-------0-------0-||-----2---------2--||-----2---------2--|
D:-----0-----------||--0------0--------||--0---------------|
A:-----------------||------------------||---------0--------|
E:--3------3-------||------------------||------------------|

Sólo na sitar:

e:--------------|---------------|---------------------|----------------|
H:--------------|---------------|-1-1-0---------------|----------------|
G:-----0-0-0-0--|-0-0-2-0---0-2-|-------0-0-0-0-0-0-0-|----------------|
D:--0-----------|---------4-----|---------------------|-4-2-0-2-3------|
A:--------------|---------------|---------------------|----------------|
E:--------------|---------------|---------------------|----------------|

e:---------------|---------------|---------------------|---------------|
H:---------------|---------------|-1-1-0---------------|---------------|
G:--0----0-0-0-0-|-0-0-2-0---0-2-|-------0-0-0-0-0-0-0-|-2-0---0-0-----|
D:-----0---------|---------4-----|---------------------|-----4---------|
A:---------------|---------------|---------------------|---------------|
E:---------------|---------------|---------------------|---------------|

Vytištěno z http://plihal.wz.cz | oficiální stránky pana Plíhala najdete na http://karelplihal.cz

Tato písnička:

Tento web je neoficiální.
Oficiální stránky Karla Plíhala najdete na karelplihal.cz.

Karel Plíhal

kompletní databáze textů s akordy


 

Škola kytary online - NaNastroj.cz | © texty Karel Plíhal, web Jakub Kletečka | aktualizováno 22.8.2017