Karel Plíhal – O budíku

Skok na menu

   Amaj7    D6       C        E        Hmi      E
e |--------|---2--2-|--------|------0-|--------|--------|
h |---2--2-|--0-0--0|---1--1-|---0---0|---3--3-|----0---|
g |--1-1--1|-2---2--|--0-0--0|--1-1---|--4-4--0|---1----|
d |-2---2--|0-------|-2---2--|-2---2--|-4---4--|--2-----|
A |0-------|--------|3-------|--------|2-------|-2------|
E |--------|--------|--------|0-------|--------|0-------|

   Hmi      Amaj7    E        Amaj7
e |--------|--------|--------|--------|
h |3--3-3--|2--2-2--|---0-0--|---2-2--|
g |--4----4|--1----1|--1----1|--1----1|
d |-4----4-|-2----2-|-2----2-|-2----2-|
A |2-------|0-------|--------|0-------|
E |--------|--------|0-------|--------|

  Hmi7-5    Hmi7-5/A# G  G7   E 
e |--------|--------|---3---1|--------|
h |---3---3|---3---3|--0---0-|----0---|
g |--2---2-|--2---0-|-0---0--|---1----|
d |-3---3--|-3---3--|--------|--2-----|
A |2-------|1-------|--------|-2------|
E |--------|--------|3-------|0-------|

Vytištěno z http://plihal.wz.cz | oficiální stránky pana Plíhala najdete na http://karelplihal.cz

Tato písnička:

Tento web je neoficiální.
Oficiální stránky Karla Plíhala najdete na karelplihal.cz.

Karel Plíhal

kompletní databáze textů s akordy


 

Škola kytary online - NaNastroj.cz | © texty Karel Plíhal, web Jakub Kletečka | aktualizováno 22.8.2017