Karel Plíhal – Na Svatým Kopečku

Skok na menu

Kapo: 3

Předehra:
   
     A                                                   
|--0------0-----0--|------------------|------------------|
|------------------|---------0h-2-----|--2h-3--2h3h2--0--|
|------------------|--2------------2--|------------------|
|------------2-----|------2-----------|------------------|
|--0---------------|--0---------------|--0---------------|
|------------------|------------------|------------------|

                                                  Esus4 
|------------5----|--2h5h2------------|-----------------|
|--2--------------|-------------3-----|--0--------------|
|-----------------|----------------0--|------------2----|
|-------2---------|--0----------------|-----------------|
|--0--------------|-------------------|-----------------|
|-----------------|-------------------|-------0---------|


  E                                    A                
|------------------|-----------------|--0------0-----0--|
|------------0-----|-----------------|------------------|
|--1------2-----1--|--------------2--|------------------|
|------------------|--2--------------|------------2-----|
|------------------|-----------------|--0---------------|
|--0---------------|--0--------0-----|------------------|

                                                     
|-------------------|--------------------|-----------5--|
|----------0h-2-----|--2h-3--2h3h2--0----|--2-----------|
|--2-------------2--|--------------------|--------------|
|-------2-----------|--------------------|-------2------|
|--0----------------|--0-----------------|--0-----------|
|-------------------|--------------------|--------------|


  D                                     Asus4           
|--2h5h2------------|-----------------|-----------------|
|-------------3-----|--0--------------|-----------3h-0--|
|----------------0--|------------1----|--2--------------|
|--0----------------|-----------------|--2--------------|
|-------------------|-----------------|--0--------------|
|-------------------|-------0---------|-----------------|
                          
|----------------||------||
|--2-------------||------||
|---------------*||------||
|---------------*||------||
|--0-------------||------||
|----------------||------||

Vytištěno z http://plihal.wz.cz | oficiální stránky pana Plíhala najdete na http://karelplihal.cz

Tato písnička:

Tento web je neoficiální.
Oficiální stránky Karla Plíhala najdete na karelplihal.cz.

Karel Plíhal

kompletní databáze textů s akordy


 

Škola kytary online - NaNastroj.cz | © texty Karel Plíhal, web Jakub Kletečka | aktualizováno 22.8.2017