Karel Plíhal – Morseovka

Skok na menu

Autor celkem logicky doporučuje kapo 4, což hraní velmi zjednoduší.

1.část

e|4-5-6-7-4--|-4---------|-----------|-----------|
h|----------5|---7-4-5---|-----------|---5-6-7---|
g|-----------|---------4-|---4-----6-|-8---------|
d|-----------|-----------|-6---7-9---|-----------|
A|-----------|-----------|-----------|-----------|
E|-----------|-----------|-----------|-----------|

2.část

e|4-5-6-7-4--|-4---------|-----------|-----------|
h|----------5|---7-4-5---|-----------|-5-4-7-5---|
g|-----------|---------4-|---4-----6-|-----------| 
d|-----------|-----------|-6---7-9---|-----------|
A|-----------|-----------|-----------|-----------|
E|-----------|-----------|-----------|-----------|

Vytištěno z http://plihal.wz.cz | oficiální stránky pana Plíhala najdete na http://karelplihal.cz

Tato písnička:

Tento web je neoficiální.
Oficiální stránky Karla Plíhala najdete na karelplihal.cz.

Karel Plíhal

kompletní databáze textů s akordy


 

škola kytary online - NaNastroj.cz | Akordy na kytaru | © texty Karel Plíhal, web Jakub Kletečka | aktualizováno 23.9.2018