Karel Plíhal – Mikymauz

Skok na menu

Písnička J. Nohavici, autorem hudby je K. Plíhal, ve filmu Rok ďábla ji hraje v této verzi.

Předehra:

 Ami           G
|------------0---3----------0-1-0----------------------|
|----1p0-----------3------3-------0-3-1----------------|
|---------2----2---------------------------------------|
|------------------------------------------------------|
|-0----------------------------------------------------|
|----------------------3-------------------------------|

 Dmi                                     Ami
|------------------0------------------------------0----|
|---3p1p0--------0-------3p1p0---------0--------1------|
|-2-------2-1h2--------2-------2-1h2----------2--------|
|-----------|--------------------|----------2----------|
|-----------|--------------------|--------0------------|
|-----------0--------------------0---------------------|

Sloka:

 Ami               G
|---------------0---3----------0-1-0-------------------|
|---(0h)1p0-----------3------3-------0-3-1-------------|
|------------2----2------------------------------------|
|------------------------------------------------------|
|-0----------------------------------------------------|
|-------------------------3----------------------------|

 Dmi                                  E
|------------------0-----------------------------------|
|---3p1p0--------0-------3p1p0-------------------------|
|-2-------2-1h2--------2-------2-1---------------------|
|-----------|--------------------|-----2-3-2-----------|
|-----------|--------------------|---------------------|
|-----------0--------------------0---------------------|

 Ami               G
|---------------0---3----------0-1-0-------------------|
|---(0h)1p0-----------3------3-------0-3-1-------------|
|------------2----2------------------------------------|
|------------------------------------------------------|
|-0----------------------------------------------------|
|-------------------------3----------------------------|

 Dmi                                      Ami
|-------------------0--------------------------------5-|
|---3p1p0--------0-------3p1p0---------0---------/5----|
|-2-------2-1h2--------2-------2-1h2-----1-----2-------|
|-----------|--------------------|-----------2---------|
|-----------|--------------------|---------0-----------|
|-----------0--------------------0---------------------|

Dohra:

|-----------------------------------------------0------|
|-------------------------------------------1-----1----|
|---------------------------------------------2-----2--|
|-----------------------------------------2------------|
|---------------------------------------0--------------|
|------------------------------------------------------|

Vytištěno z http://plihal.wz.cz | oficiální stránky pana Plíhala najdete na http://karelplihal.cz

Tato písnička:

Tento web je neoficiální.
Oficiální stránky Karla Plíhala najdete na karelplihal.cz.

Karel Plíhal

kompletní databáze textů s akordy


 

škola kytary online - NaNastroj.cz | Akordy na kytaru | © texty Karel Plíhal, web Jakub Kletečka | aktualizováno 23.9.2018