Karel Plíhal – Levitační

Skok na menu

Kapo: 1

E|-----------------||-----------------|
H|----2--------2---||----2--------2---|
G|----1--------1---||----0--------0---|
D|--2---2----2---2-||--2---2----2---2-|
A|0--------0-------||0--------0-------|
E|-----------------||-----------------|

|-----------------||-----------------|
|----2--------2---||----2--------2---|
|----1--------1---||----0--------0---|
|--2---2----2---2-||--2---2----2---2-|
|0--------0-------||0--------0-------|
|-----------------||-----------------|

 Tác a na něm káva  dál jako by vzduchem plula
|-----------------||-----------------|
|----2--------2---||----2--------2---|
|----1--------1---||----0--------0---|
|--2---2----2---2-||--2---2----2---2-|
|0--------0-------||0--------0-------|
|-----------------||-----------------|

 číšník dodělává    účet na měmž chybí nula
|-----------------||-----------------|
|----2--------2---||----2--------2---|
|----1--------1---||----0--------0---|
|--2---2----2---2-||--2---2----2---2-|
|0--------0-------||0--------0-------|
|-----------------||-----------------|

   někdy mám to štěstí,že jsem ve stavu beztíže
|-----------------|      |-----------------|
|----2--------2---|      |----1--------0---|
|----2--------2---|      |----2--------1---|
|--4---4----4---4-|      |--3---3----2---2-|
|-----------------|      |-----------------|
|2--------2-------|      |1--------0-------|

 i s tebou
|-----------------||------3----0-----|
|----2--------2---||--1----------1---|
|----1--------1---||----2----2-----2-|
|--2---2----2---2-||3----------------|
|0--------0-------||-----------------|
|-----------------||-----------------|

 Vzácné chvíle smíru,   amorových probodnutí
|-----------------|  |-----------------|
|----2--------2---|  |----2--------2---|
|----1--------1---|  |----0--------0---|
|--2---2----2---2-|  |--2---2----2---2-|
|0--------0-------|  |0--------0-------|
|-----------------|  |-----------------|

 vzácné chvíle smíru,   osudová rozhodnutí
|-----------------|  |-----------------|
|----2--------2---|  |----2--------2---|
|----1--------1---|  |----0--------0---|
|--2---2----2---2-|  |--2---2----2---2-|
|0--------0-------|  |0--------0-------|
|-----------------|  |-----------------|

 těžká, težší, nejtěžší, nic neváží, nic neřeší
|-----------------|         |-----------------|
|----2--------2---|         |----1--------0---|
|----2--------2---|         |----2--------1---|
|--4---4----4---4-|         |--3---3----2---2-|
|-----------------|         |-----------------|
|2--------2-------|         |1--------0-------|

 jsem s tebou
|-----------------||---------2---0---|
|----2--------2---||----2----------0-|
|----1--------1p0-||----0------------|
|--2---2----2-----||--2---2----2-----|
|0--------0-------||0----------------|
|-----------------||-----------------|

 Poničená, poničen    hádáme se o ničem
|-----------------|  |-----------------|
|----7--------7---|  |----2--------2---|
|----6--------6---|  |----1--------1---|
|--7---7----7---7-|  |--2---2----2---2-|
|5--------5-------|  |0--------0-------|
|-----------------|  |-----------------|

   pokaždé, když zpátky na zem klesnem
|-----------------|           |-----------------|
|------0--------0-|           |----2--------2---|
|----2--------1---|           |----1--------1---|
|--2--------2-----|           |--2---2----2---2-|
|-----------------|           |0--------0-------|
|0--------0-------|           |-----------------|

 naše láska samý steh   a to zvláště na místech
|-----------------|  |-----------------|
|----3--------3---|  |----3--------3---|
|----2--------2---|  |----2--------2---|
|--3---3----3---3-|  |--3---3----3-----|
|2--------2-------|  |1--------1-----0-|
|-----------------|  |-----------------|

   kde se tříská realita se snem
|-----------------|     |-----------------|
|----3--------3---|     |------0--------0-|
|----0--------0---|     |----2--------1---|
|--0---0----0---0-|     |--2--------2-----|
|-----------------|     |-----------------|
|3--------3-------|     |0--------0-------|

|--0------------0-|  |-----------------|
|------10---------|  |----2--------2---|
|----13-------13--|  |----1--------1---|
|-----------11----|  |--2---2----2---2-|
|0--------0-------|  |0--------0-------|
|-----------------|  |-----------------|


|--0------------0-|  |-----------------|
|------10---------|  |----2--------2---|
|----13-------13--|  |----0--------0---|
|-----------11----|  |--2---2----2---2-|
|0--------0-------|  |0--------0-------|
|-----------------|  |-----------------|


|----4-5------4---|  |-----------------|
|--5--------5---5-|  |---------3-----0-|
|-----------------|  |-----------5-----|
|-----------------|  |----0--------6---|
|-----------------|  |--3--------------|
|2--------2-------|  |1----------------|

|-------------0---|  |-----------------|
|----0----------2-|  |----0--------0---|
|------2----------|  |----0--------0---|
|--2--------2-----|  |--2---2----2---2-|
|0--------0-------|  |0--------0-------|
|-----------------|  |-----------------|

 Poničená, poničen    hádáme se o ničem
|-----------------|  |-----------------|
|----7--------7---|  |----2--------2---|
|----6--------6---|  |----1--------1---|
|--7---7----7---7-|  |--2---2----2---2-|
|5--------5-------|  |0--------0-------|
|-----------------|  |-----------------|

   pokaždé, když zpátky na zem klesnem
|-----------------|           |-----------------|
|------0--------0-|           |----2--------2---|
|----2--------1---|           |----1--------1---|
|--2--------2-----|           |--2---2----2---2-|
|-----------------|           |0--------0-------|
|0--------0-------|           |-----------------|

 naše láska samý steh   a to zvláště na místech
|-----------------|  |-----------------|
|----3--------3---|  |----3--------3---|
|----2--------2---|  |----2--------2---|
|--3---3----3---3-|  |--3---3----3-----|
|2--------2-------|  |1--------1-----0-|
|-----------------|  |-----------------|

   kde se tříská realita se snem
|-----------------|     |-----------------|
|----3--------3---|     |------0--------0-|
|----0--------0---|     |----2--------1---|
|--0---0----0---0-|     |--2--------2-----|
|-----------------|     |-----------------|
|3--------3-------|     |0--------0-------|

 Tác a na něm káva  dál jako by vzduchem plula
|-----------------||-----------------|
|----2--------2---||----2--------2---|
|----1--------1---||----0--------0---|
|--2---2----2---2-||--2---2----2---2-|
|0--------0-------||0--------0-------|
|-----------------||-----------------|

 číšník dodělává    účet na měmž chybí nula
|-----------------||-----------------|
|----2--------2---||----2--------2---|
|----1--------1---||----0--------0---|
|--2---2----2---2-||--2---2----2---2-|
|0--------0-------||0--------0-------|
|-----------------||-----------------|

   někdy mám to štěstí,že jsem ve stavu beztíže
|-----------------|      |-----------------|
|----2--------2---|      |----1--------0---|
|----2--------2---|      |----2--------1---|
|--4---4----4---4-|      |--3---3----2---2-|
|-----------------|      |-----------------|
|2--------2-------|      |1--------0-------|

 i s tebou
|-----------------||------3----0-----|
|----2--------2---||--1----------1---|
|----1--------1---||----2----2-----2-|
|--2---2----2---2-||3----------------|
|0--------0-------||-----------------|
|-----------------||-----------------|


 Tác a na něm káva  dál jako by vzduchem plula
|-----------------||-----------------|
|----2--------2---||----2--------2---|
|----1--------1---||----0--------0---|
|--2---2----2---2-||--2---2----2---2-|
|0--------0-------||0--------0-------|
|-----------------||-----------------|

 číšník dodělává    účet na měmž chybí nula
|-----------------||-----------------|
|----2--------2---||----2--------2---|
|----1--------1---||----0--------0---|
|--2---2----2---2-||--2---2----2---2-|
|0--------0-------||0--------0-------|
|-----------------||-----------------|

 hlídám si svou kotletu, jež se chystá k odletu i
|-----------------|     |-----------------|
|----2--------2---|     |----1--------0---|
|----2--------2---|     |----2--------1---|
|--4---4----4---4-|     |--3---3----2---2-|
|-----------------|     |-----------------|
|2--------2-------|     |1--------0-------|

 s tebou		   trilek 
|---------0-------||------3p0h3p0----||--------------|
|----2------2-----||--1--------1-----||----2---------|
|------1------1---||----2--------2---||---1----------|
|--2------------2-||3--------------3-||--2-----------|
|0----------------||-----------------||-0------------|
|-----------------||-----------------||0-------------|

Vytištěno z http://plihal.wz.cz | oficiální stránky pana Plíhala najdete na http://karelplihal.cz

Tato písnička:

Tento web je neoficiální.
Oficiální stránky Karla Plíhala najdete na karelplihal.cz.

Karel Plíhal

kompletní databáze textů s akordy


 

škola kytary online - NaNastroj.cz | Akordy na kytaru | © texty Karel Plíhal, web Jakub Kletečka | aktualizováno 23.9.2018