Karel Plíhal – Lelek

Skok na menu

Kapo: 2

Sloka:
    D     G       Hmi       D   G   A
e |-------------------0-2-3-2-------------------------|
h |---3---------2-3p0---------3-0-----------0---------|
g |-2---2-0-2-4-------------------0-2---2-0---2p0-----|
d |-------------------------0-------------------------|
A |---------------2---0-------------0-0---------------|
E |-------3---------------------3---------------------|

   D      G       Hmi	    D   G   D
e |-------------------0h2h3-------0---2---------------|
h |---3---------2-3p0---------3-----3-3---------------|
g |-2---2-0-2-4-----------------------2---------------|
d |-------------------------0-------0-0---------------|
A |---------------2---0-------------------------------|
E |-------3---------------------3---------------------|

Ref:
          A       G       A                     
e |---------------------2-----------------------------|
h |-------------2-----0---------2---------------------|
g |-2-0-------2-----0---------2-----------------------|
d |-----4---2---------------2-----2-------------------|
A |-0-----0---------------0---------------------------|
E |---------------3-----------------------------------|

Vytištěno z http://plihal.wz.cz | oficiální stránky pana Plíhala najdete na http://karelplihal.cz

Tato písnička:

Tento web je neoficiální.
Oficiální stránky Karla Plíhala najdete na karelplihal.cz.

Karel Plíhal

kompletní databáze textů s akordy


 

škola kytary online - NaNastroj.cz | Akordy na kytaru | © texty Karel Plíhal, web Jakub Kletečka | aktualizováno 23.9.2018