Karel Plíhal – Děvče mi usnulo

Skok na menu

Kapo: 1

Předehra:

   C        Ami7     Fmaj7    G       C       Ami7   
e |0-----0---------|----0-----------|0-----0---------|
h |----1---------1-|------3-------1-|----1---------1-|
g |--0---------0---|--2---------0---|--0---------0---|
d |----------2-----|3---------0-----|----------2-----|
A |3-------0-------|----------------|3-------0-------|
E |----------------|--------3-------|----------------|

   Fmaj7     G                       C
e |----0-----------|0---------------|----------------|
h |------3-------3-|----3-1---------|1---------------|
g |--2---------0---|--0-------------|----------------|
d |3---------0-----|----------------|----------------|
A |----------------|----------------|3---------------|
E |--------3-------|----------------|----------------|

Vytištěno z http://plihal.wz.cz | oficiální stránky pana Plíhala najdete na http://karelplihal.cz

Tato písnička:

Tento web je neoficiální.
Oficiální stránky Karla Plíhala najdete na karelplihal.cz.

Karel Plíhal

kompletní databáze textů s akordy


 

škola kytary online - NaNastroj.cz | Akordy na kytaru | © texty Karel Plíhal, web Jakub Kletečka | aktualizováno 23.9.2018