Karel Plíhal – Černá díra

Skok na menu

G       G         G       D         C        G
                   Mívali jsme...    starého už...
|-----------------|---------------2-|-----------------|
|-------3-------3-|-------3-----3---|-------1-------3-|
|-----0-------0---|-----0-----2-----|-----0-------0---|
|---0-------0-----|---0-----0-------|---2-------0-----|
|-----------------|-----------------|-3---------------|
|-3-------3-------|-3---------------|---------3-------|
  
  G       D         C       D   G     Emi     C        
  Stalo...          jednou...         šel...            
|---------------2-|-----------------|-----------------|
|-------3-----3---|-------1---------|-------0-------1-|
|-----0-----2-----|-----0-----------|-----0-------0---|
|---0-----0-------|---2-----0-------|---2-------2-----|
|-----------------|-3---------------|-2-------3-------|
|-3---------------|-------------3---|-----------------|
  
 A        D        G       D         C       D   G
 aby seno...       Ale už...         prostě...
----------------2-|---------------2-|-----------------|
-------2------3---|-------3-----3---|-------1---------|
-----2------2-----|-----0-----2-----|-----0-----------|
---2------0-------|---0-----0-------|---2-----0-------|
-0----------------|-----------------|-3---------------|
------------------|-3---------------|-------------3---|

Poslední sloka:

  A       E         D       A         A       E        
  Dědeček se...     že je zase...     teď je naše...   
|---------------0-|-------2---------|---------------0-|
|-------2-----0---|-----3---------2-|-------2-----0---|
|-----2-----1-----|---2---------2---|-----2-----1-----|
|---2-----2-------|-0---------2-----|---2-----2-------|
|-0---------------|---------0-------|-0---------------|
|-----------------|-----------------|-----------------|


 D       E   A
 zralá na recenzi 
|-------2---------|
|-----3-----------|
|---2-------------|
|-0-------2-------|
|-------------0---|
|-----------------|

Vytištěno z http://plihal.wz.cz | oficiální stránky pana Plíhala najdete na http://karelplihal.cz

Tato písnička:

Tento web je neoficiální.
Oficiální stránky Karla Plíhala najdete na karelplihal.cz.

Karel Plíhal

kompletní databáze textů s akordy


 

škola kytary online - NaNastroj.cz | Akordy na kytaru | © texty Karel Plíhal, web Jakub Kletečka | aktualizováno 23.9.2018