Karel Plíhal – Akordy

Skok na menu

1.sloka

  E                 E                 A7maj             A7maj
  Nejkrásnější akord bude             A maj
|----------0----|----------0----|-----------0----|----------0-----|
|------0-------0|------0-------0|-------2-------2|------2-------0-|
|----1-------1--|----1-------1--|-----1-------1--|----1-------1---|
|--2------------|--2------------|---2------------|--2-------------|
|---------------|---------------|-0-------0------|0-------0-------|
|0-------0------|0-------0------|----------------|----------------|

  E                 E                 C                 C (*)
  prstíky se při něm                  nepolámaj
|----------0----|----------0----|----------0----|-----------------|
|------0-------0|------0-------0|------1-------1|-----1-----1-----|
|----1-------1--|----1-------1--|----0-------0--|---0-----0-----0-|
|--2------------|--2------------|--2------------|-------0-----2---|
|---------------|---------------|3-------3------|-3---------------|
|0-------0------|0-------0------|---------------|-----------------|

  A                 H7                G#mi              C#mi
  pomohl mi         k hezké holce     s absolutním      sluchem
|----------0----|--------2------|----------4----|-----------4-----|
|------2-------2|------0-------0|------4-------4|-------5-------0-|
|----2-------2--|----2-------2--|----4-------4--|-----6-------6---|
|--2------------|--1------------|--6------------|---6-------------|
|0-------0------|2---------2----|6-------6------|-4-------4-------|
|---------------|---------------|---------------|-----------------|

  A                 C                 E                 A7maj
  každý večer       naplníme          balón horkým      vzduchem
|----------0----|----------0----|----------0----|-----------0-----|
|------2-------2|------1-------1|------0-------0|-------2-------2-|
|----2-------2--|----0-------0--|----1-------1--|-----1-------1---|
|--2------------|--2------------|--2------------|---2-------------|
|0-------0------|3-------3------|2-------2------|-0-------0-------|
|---------------|---------------|---------------|-----------------|

  A7maj

|-----------0-----|
|-------2-------0-|
|-----1-------1---|
|---2-------------|
|-0-------0-------|
|-----------------|


2. a 3. sloka se hraje stejně, jen na konci je misto A7maj,
Ami nebo A. 
(*) takto se hraje v 1.sloce. Jinak se hraje jako předchozí sloupec.

Refrén
  A (několikrát)    A                 A                 A7maj (2x)
                    Od A dur je jenom kousek k          A maj
|----------0----|----------0----|----------0----|----------0-----|
|------2-------2|------2-------2|------2-------2|------2-------2-|
|----2-------2--|----2-------2--|----2-------2--|----1-------1---|
|--2------------|--2------------|--2------------|--2-------------|
|0-------0------|0-------0------|0-------0------|0-------0-------|
|---------------|---------------|---------------|----------------|

 F#mi               F#mi/F            F#mi/E            F#mi/#D 
 proto všem těm       co se v lasce       zklamaj
|--------2------|--------2------|--------2------|--------2-------|
|------2---2--2-|------2---2--2-|------2---2--2-|------2---2--2--|
|----2------2---|----2------2---|----2------2---|----2------2----|
|--4-------4----|--3-------3----|--2-------2----|--1-------1-----|
|---------------|---------------|---------------|----------------|
|---------------|---------------|---------------|----------------|


Zbytek je stejný jako sloka A-H7-G#mi-C#mi atd.
A úplně na konci je C7maj ;-)

Vytištěno z http://plihal.wz.cz | oficiální stránky pana Plíhala najdete na http://karelplihal.cz

Tato písnička:

Tento web je neoficiální.
Oficiální stránky Karla Plíhala najdete na karelplihal.cz.

Karel Plíhal

kompletní databáze textů s akordy


 

škola kytary online - NaNastroj.cz | Akordy na kytaru | © texty Karel Plíhal, web Jakub Kletečka | aktualizováno 23.9.2018